ISO-10303-21;
HEADER;
/****************************************************************
 * Generated by software with PDE/Lib inside                    *
 * PDElib Version v51a, created 02/12/2009 Thu                  *
 * International Technegroup Inc. (www.iti-oh.com)              *
 ****************************************************************/
FILE_DESCRIPTION((''),'2;1');
FILE_NAME('K:\\DokuCD\\3D Dateien\\DC-Doppelr\S\|ckschlagklappe\\DC-DN300.stp','2009-09-24T14:30:37',('Hellwig'),(''),'Autodesk Inventor 2009','Autodesk Inventor 2009','');
FILE_SCHEMA(('AUTOMOTIVE_DESIGN { 1 0 10303 214 1 1 1 1 }'));
ENDSEC;
DATA;
#5=APPLICATION_CONTEXT('automotive design');
#6=APPLICATION_PROTOCOL_DEFINITION('International Standard','automotive_design',2001,#5);
#7=PRODUCT_CONTEXT('',#5,'mechanical');
#8=PRODUCT('DC-DN300 Doppelr\S\|ckschlagklappe','DC-DN300 Doppelr\S\|ckschlagklappe',$,(#7));
#9=PRODUCT_RELATED_PRODUCT_CATEGORY('part',$,(#8));
#10=PRODUCT_DEFINITION_FORMATION('',$,#8);
#11=PRODUCT_DEFINITION_CONTEXT('part definition',#5,'design');
#12=PRODUCT_DEFINITION('',$,#10,#11);
#18=(NAMED_UNIT(*)PLANE_ANGLE_UNIT()SI_UNIT($,.RADIAN.));
#19=DIMENSIONAL_EXPONENTS(0.0,0.0,0.0,0.0,0.0,0.0,0.0);
#20=PLANE_ANGLE_MEASURE_WITH_UNIT(PLANE_ANGLE_MEASURE(0.017453292500000),#18);
#24=(CONVERSION_BASED_UNIT('DEGREE',#20)NAMED_UNIT(#19)PLANE_ANGLE_UNIT());
#28=(NAMED_UNIT(*)SI_UNIT($,.STERADIAN.)SOLID_ANGLE_UNIT());
#32=(LENGTH_UNIT()NAMED_UNIT(*)SI_UNIT(.MILLI.,.METRE.));
#34=UNCERTAINTY_MEASURE_WITH_UNIT(LENGTH_MEASURE(0.010000000000000),#32,'DISTANCE_ACCURACY_VALUE','');
#36=(GEOMETRIC_REPRESENTATION_CONTEXT(3)GLOBAL_UNCERTAINTY_ASSIGNED_CONTEXT((#34))GLOBAL_UNIT_ASSIGNED_CONTEXT((#24,#28,#32))REPRESENTATION_CONTEXT('None','None'));
#37=AXIS2_PLACEMENT_3D('',#38,#39,#40);
#38=CARTESIAN_POINT('',(0.0,0.0,0.0));
#39=DIRECTION('',(0.0,0.0,1.0));
#40=DIRECTION('',(1.0,0.0,0.0));
#41=SHAPE_REPRESENTATION('',(#37),#36);
#42=PRODUCT_DEFINITION_SHAPE('','',#12);
#43=SHAPE_DEFINITION_REPRESENTATION(#42,#41);
#49=(NAMED_UNIT(*)PLANE_ANGLE_UNIT()SI_UNIT($,.RADIAN.));
#50=DIMENSIONAL_EXPONENTS(0.0,0.0,0.0,0.0,0.0,0.0,0.0);
#51=PLANE_ANGLE_MEASURE_WITH_UNIT(PLANE_ANGLE_MEASURE(0.017453292500000),#49);
#55=(CONVERSION_BASED_UNIT('DEGREE',#51)NAMED_UNIT(#50)PLANE_ANGLE_UNIT());
#59=(NAMED_UNIT(*)SI_UNIT($,.STERADIAN.)SOLID_ANGLE_UNIT());
#63=(LENGTH_UNIT()NAMED_UNIT(*)SI_UNIT(.MILLI.,.METRE.));
#65=UNCERTAINTY_MEASURE_WITH_UNIT(LENGTH_MEASURE(0.000001000000000),#63,'DISTANCE_ACCURACY_VALUE','');
#67=(GEOMETRIC_REPRESENTATION_CONTEXT(3)GLOBAL_UNCERTAINTY_ASSIGNED_CONTEXT((#65))GLOBAL_UNIT_ASSIGNED_CONTEXT((#55,#59,#63))REPRESENTATION_CONTEXT('','3D'));
#68=CARTESIAN_POINT('',(0.0,19.000000000000004,0.0));
#69=DIRECTION('',(0.0,1.0,0.0));
#70=DIRECTION('',(0.0,0.0,1.0));
#71=AXIS2_PLACEMENT_3D('',#68,#69,#70);
#72=PLANE('',#71);
#73=CARTESIAN_POINT('',(7.499999999999981,19.000000000000004,-153.817261710121500));
#74=VERTEX_POINT('',#73);
#75=CARTESIAN_POINT('',(7.499999999999981,19.000000000000004,153.817261710121500));
#76=VERTEX_POINT('',#75);
#77=CARTESIAN_POINT('',(7.500000000000000,19.000000000000004,-153.817261710121500));
#78=DIRECTION('',(0.0,0.0,1.0));
#79=VECTOR('',#78,307.634523420243000);
#80=LINE('',#77,#79);
#81=EDGE_CURVE('',#74,#76,#80,.T.);
#82=ORIENTED_EDGE('',*,*,#81,.T.);
#83=CARTESIAN_POINT('',(-1.110223E-014,19.000000000000004,0.0));
#84=DIRECTION('',(0.0,1.0,0.0));
#85=DIRECTION('',(0.048701298701299,0.0,0.998813387728062));
#86=AXIS2_PLACEMENT_3D('',#83,#84,#85);
#87=CIRCLE('',#86,154.000000000000030);
#88=EDGE_CURVE('',#76,#74,#87,.T.);
#89=ORIENTED_EDGE('',*,*,#88,.T.);
#90=EDGE_LOOP('',(#82,#89));
#91=FACE_OUTER_BOUND('',#90,.T.);
#92=ADVANCED_FACE('',(#91),#72,.T.);
#93=CARTESIAN_POINT('',(0.0,19.000000000000004,0.0));
#94=DIRECTION('',(0.0,1.0,0.0));
#95=DIRECTION('',(0.0,0.0,1.0));
#96=AXIS2_PLACEMENT_3D('',#93,#94,#95);
#97=PLANE('',#96);
#98=CARTESIAN_POINT('',(-7.499999999999981,19.000000000000004,-153.817261710121500));
#99=VERTEX_POINT('',#98);
#100=CARTESIAN_POINT('',(-7.499999999999981,19.000000000000004,153.817261710121500));
#101=VERTEX_POINT('',#100);
#102=CARTESIAN_POINT('',(4.440892E-015,19.000000000000004,-2.220446E-015));
#103=DIRECTION('',(0.0,1.0,0.0));
#104=DIRECTION('',(-0.048701298701299,0.0,-0.998813387728062));
#105=AXIS2_PLACEMENT_3D('',#102,#103,#104);
#106=CIRCLE('',#105,154.000000000000030);
#107=EDGE_CURVE('',#99,#101,#106,.T.);
#108=ORIENTED_EDGE('',*,*,#107,.T.);
#109=CARTESIAN_POINT('',(-7.500000000000000,19.000000000000004,153.817261710121500));
#110=DIRECTION('',(0.0,0.0,-1.0));
#111=VECTOR('',#110,307.634523420243000);
#112=LINE('',#109,#111);
#113=EDGE_CURVE('',#101,#99,#112,.T.);
#114=ORIENTED_EDGE('',*,*,#113,.T.);
#115=EDGE_LOOP('',(#108,#114));
#116=FACE_OUTER_BOUND('',#115,.T.);
#117=ADVANCED_FACE('',(#116),#97,.T.);
#118=CARTESIAN_POINT('',(0.0,19.000000000000004,0.0));
#119=DIRECTION('',(0.0,-1.0,0.0));
#120=DIRECTION('',(-1.0,0.0,0.0));
#121=AXIS2_PLACEMENT_3D('',#118,#119,#120);
#122=CYLINDRICAL_SURFACE('',#121,159.000000000000030);
#123=CARTESIAN_POINT('',(159.000000000000030,14.000000000000004,1.947188E-014));
#124=VERTEX_POINT('',#123);
#125=CARTESIAN_POINT('',(0.0,14.000000000000004,0.0));
#126=DIRECTION('',(0.0,1.0,0.0));
#127=DIRECTION('',(-1.0,0.0,0.0));
#128=AXIS2_PLACEMENT_3D('',#125,#126,#127);
#129=CIRCLE('',#128,159.000000000000030);
#130=EDGE_CURVE('',#124,#124,#129,.T.);
#131=ORIENTED_EDGE('',*,*,#130,.T.);
#132=EDGE_LOOP('',(#131));
#133=FACE_OUTER_BOUND('',#132,.T.);
#134=CARTESIAN_POINT('',(159.000000000000030,19.000000000000004,1.947188E-014));
#135=VERTEX_POINT('',#134);
#136=CARTESIAN_POINT('',(0.0,19.000000000000004,0.0));
#137=DIRECTION('',(0.0,1.0,0.0));
#138=DIRECTION('',(-1.0,0.0,0.0));
#139=AXIS2_PLACEMENT_3D('',#136,#137,#138);
#140=CIRCLE('',#139,159.000000000000030);
#141=EDGE_CURVE('',#135,#135,#140,.T.);
#142=ORIENTED_EDGE('',*,*,#141,.F.);
#143=EDGE_LOOP('',(#142));
#144=FACE_BOUND('',#143,.T.);
#145=ADVANCED_FACE('',(#133,#144),#122,.T.);
#146=CARTESIAN_POINT('',(0.0,14.000000000000004,0.0));
#147=DIRECTION('',(0.0,1.0,0.0));
#148=DIRECTION('',(0.0,0.0,1.0));
#149=AXIS2_PLACEMENT_3D('',#146,#147,#148);
#150=PLANE('',#149);
#151=ORIENTED_EDGE('',*,*,#130,.F.);
#152=EDGE_LOOP('',(#151));
#153=FACE_OUTER_BOUND('',#152,.T.);
#154=ADVANCED_FACE('',(#153),#150,.F.);
#155=CARTESIAN_POINT('',(4.440892E-015,56.999999999999993,-2.220446E-015));
#156=DIRECTION('',(0.0,-1.0,0.0));
#157=DIRECTION('',(-0.048701298701299,0.0,-0.998813387728062));
#158=AXIS2_PLACEMENT_3D('',#155,#156,#157);
#159=CYLINDRICAL_SURFACE('',#158,154.000000000000030);
#160=ORIENTED_EDGE('',*,*,#107,.F.);
#161=CARTESIAN_POINT('',(-7.499999999999981,56.999999999999993,-153.817261710121500));
#162=VERTEX_POINT('',#161);
#163=CARTESIAN_POINT('',(-7.499999999999981,56.999999999999993,-153.817261710121500));
#164=DIRECTION('',(0.0,-1.0,0.0));
#165=VECTOR('',#164,37.999999999999986);
#166=LINE('',#163,#165);
#167=EDGE_CURVE('',#162,#99,#166,.T.);
#168=ORIENTED_EDGE('',*,*,#167,.F.);
#169=CARTESIAN_POINT('',(-7.499999999999981,56.999999999999993,153.817261710121500));
#170=VERTEX_POINT('',#169);
#171=CARTESIAN_POINT('',(4.440892E-015,56.999999999999993,-2.220446E-015));
#172=DIRECTION('',(0.0,-1.0,0.0));
#173=DIRECTION('',(-0.048701298701299,0.0,-0.998813387728062));
#174=AXIS2_PLACEMENT_3D('',#171,#172,#173);
#175=CIRCLE('',#174,154.000000000000030);
#176=EDGE_CURVE('',#170,#162,#175,.T.);
#177=ORIENTED_EDGE('',*,*,#176,.F.);
#178=CARTESIAN_POINT('',(-7.499999999999981,56.999999999999993,153.817261710121500));
#179=DIRECTION('',(0.0,-1.0,0.0));
#180=VECTOR('',#179,37.999999999999986);
#181=LINE('',#178,#180);
#182=EDGE_CURVE('',#170,#101,#181,.T.);
#183=ORIENTED_EDGE('',*,*,#182,.T.);
#184=EDGE_LOOP('',(#160,#168,#177,#183));
#185=FACE_OUTER_BOUND('',#184,.T.);
#186=ADVANCED_FACE('',(#185),#159,.F.);
#187=CARTESIAN_POINT('',(-7.500000000000000,56.999999999999993,0.0));
#188=DIRECTION('',(1.0,0.0,0.0));
#189=DIRECTION('',(0.0,0.0,-1.0));
#190=AXIS2_PLACEMENT_3D('',#187,#188,#189);
#191=PLANE('',#190);
#192=ORIENTED_EDGE('',*,*,#113,.F.);
#193=ORIENTED_EDGE('',*,*,#182,.F.);
#194=CARTESIAN_POINT('',(-7.500000000000000,56.999999999999993,-153.817261710121500));
#195=DIRECTION('',(0.0,0.0,1.0));
#196=VECTOR('',#195,307.634523420243000);
#197=LINE('',#194,#196);
#198=EDGE_CURVE('',#162,#170,#197,.T.);
#199=ORIENTED_EDGE('',*,*,#198,.F.);
#200=ORIENTED_EDGE('',*,*,#167,.T.);
#201=EDGE_LOOP('',(#192,#193,#199,#200));
#202=FACE_OUTER_BOUND('',#201,.T.);
#203=ADVANCED_FACE('',(#202),#191,.F.);
#204=CARTESIAN_POINT('',(7.500000000000000,56.999999999999993,0.0));
#205=DIRECTION('',(-1.0,0.0,0.0));
#206=DIRECTION('',(0.0,0.0,1.0));
#207=AXIS2_PLACEMENT_3D('',#204,#205,#206);
#208=PLANE('',#207);
#209=ORIENTED_EDGE('',*,*,#81,.F.);
#210=CARTESIAN_POINT('',(7.499999999999981,56.999999999999993,-153.817261710121500));
#211=VERTEX_POINT('',#210);
#212=CARTESIAN_POINT('',(7.499999999999981,56.999999999999993,-153.817261710121500));
#213=DIRECTION('',(0.0,-1.0,0.0));
#214=VECTOR('',#213,37.999999999999986);
#215=LINE('',#212,#214);
#216=EDGE_CURVE('',#211,#74,#215,.T.);
#217=ORIENTED_EDGE('',*,*,#216,.F.);
#218=CARTESIAN_POINT('',(7.499999999999981,56.999999999999993,153.817261710121500));
#219=VERTEX_POINT('',#218);
#220=CARTESIAN_POINT('',(7.500000000000000,56.999999999999993,153.817261710121500));
#221=DIRECTION('',(0.0,0.0,-1.0));
#222=VECTOR('',#221,307.634523420243000);
#223=LINE('',#220,#222);
#224=EDGE_CURVE('',#219,#211,#223,.T.);
#225=ORIENTED_EDGE('',*,*,#224,.F.);
#226=CARTESIAN_POINT('',(7.499999999999981,56.999999999999993,153.817261710121500));
#227=DIRECTION('',(0.0,-1.0,0.0));
#228=VECTOR('',#227,37.999999999999986);
#229=LINE('',#226,#228);
#230=EDGE_CURVE('',#219,#76,#229,.T.);
#231=ORIENTED_EDGE('',*,*,#230,.T.);
#232=EDGE_LOOP('',(#209,#217,#225,#231));
#233=FACE_OUTER_BOUND('',#232,.T.);
#234=ADVANCED_FACE('',(#233),#208,.F.);
#235=CARTESIAN_POINT('',(-1.110223E-014,56.999999999999993,0.0));
#236=DIRECTION('',(0.0,-1.0,0.0));
#237=DIRECTION('',(0.048701298701299,0.0,0.998813387728062));
#238=AXIS2_PLACEMENT_3D('',#235,#236,#237);
#239=CYLINDRICAL_SURFACE('',#238,154.000000000000030);
#240=ORIENTED_EDGE('',*,*,#88,.F.);
#241=ORIENTED_EDGE('',*,*,#230,.F.);
#242=CARTESIAN_POINT('',(-1.110223E-014,56.999999999999993,0.0));
#243=DIRECTION('',(0.0,-1.0,0.0));
#244=DIRECTION('',(0.048701298701299,0.0,0.998813387728062));
#245=AXIS2_PLACEMENT_3D('',#242,#243,#244);
#246=CIRCLE('',#245,154.000000000000030);
#247=EDGE_CURVE('',#211,#219,#246,.T.);
#248=ORIENTED_EDGE('',*,*,#247,.F.);
#249=ORIENTED_EDGE('',*,*,#216,.T.);
#250=EDGE_LOOP('',(#240,#241,#248,#249));
#251=FACE_OUTER_BOUND('',#250,.T.);
#252=ADVANCED_FACE('',(#251),#239,.F.);
#253=CARTESIAN_POINT('',(0.0,-18.999999999999989,0.0));
#254=DIRECTION('',(0.0,-1.0,0.0));
#255=DIRECTION('',(1.0,0.0,0.0));
#256=AXIS2_PLACEMENT_3D('',#253,#254,#255);
#257=CYLINDRICAL_SURFACE('',#256,164.000000000000030);
#258=CARTESIAN_POINT('',(164.000000000000030,-56.999999999999986,0.0));
#259=VERTEX_POINT('',#258);
#260=CARTESIAN_POINT('',(0.0,-56.999999999999993,0.0));
#261=DIRECTION('',(0.0,1.0,0.0));
#262=DIRECTION('',(1.0,0.0,0.0));
#263=AXIS2_PLACEMENT_3D('',#260,#261,#262);
#264=CIRCLE('',#263,164.000000000000030);
#265=EDGE_CURVE('',#259,#259,#264,.T.);
#266=ORIENTED_EDGE('',*,*,#265,.F.);
#267=EDGE_LOOP('',(#266));
#268=FACE_OUTER_BOUND('',#267,.T.);
#269=CARTESIAN_POINT('',(164.000000000000030,19.000000000000004,0.0));
#270=VERTEX_POINT('',#269);
#271=CARTESIAN_POINT('',(0.0,19.000000000000004,0.0));
#272=DIRECTION('',(0.0,-1.0,0.0));
#273=DIRECTION('',(1.0,0.0,0.0));
#274=AXIS2_PLACEMENT_3D('',#271,#272,#273);
#275=CIRCLE('',#274,164.000000000000030);
#276=EDGE_CURVE('',#270,#270,#275,.T.);
#277=ORIENTED_EDGE('',*,*,#276,.F.);
#278=EDGE_LOOP('',(#277));
#279=FACE_BOUND('',#278,.T.);
#280=ADVANCED_FACE('',(#268,#279),#257,.F.);
#281=CARTESIAN_POINT('',(82.000000000000014,19.000000000000004,0.0));
#282=DIRECTION('',(0.0,1.0,0.0));
#283=DIRECTION('',(0.0,0.0,1.0));
#284=AXIS2_PLACEMENT_3D('',#281,#282,#283);
#285=PLANE('',#284);
#286=ORIENTED_EDGE('',*,*,#276,.T.);
#287=EDGE_LOOP('',(#286));
#288=FACE_OUTER_BOUND('',#287,.T.);
#289=ORIENTED_EDGE('',*,*,#141,.T.);
#290=EDGE_LOOP('',(#289));
#291=FACE_BOUND('',#290,.T.);
#292=ADVANCED_FACE('',(#288,#291),#285,.F.);
#293=CARTESIAN_POINT('',(0.0,0.0,0.0));
#294=DIRECTION('',(0.0,-1.0,0.0));
#295=DIRECTION('',(1.0,0.0,0.0));
#296=AXIS2_PLACEMENT_3D('',#293,#294,#295);
#297=CYLINDRICAL_SURFACE('',#296,177.000000000000030);
#298=CARTESIAN_POINT('',(177.000000000000030,-45.000000000000007,0.0));
#299=VERTEX_POINT('',#298);
#300=CARTESIAN_POINT('',(0.0,-45.000000000000007,0.0));
#301=DIRECTION('',(0.0,-1.0,0.0));
#302=DIRECTION('',(1.0,0.0,0.0));
#303=AXIS2_PLACEMENT_3D('',#300,#301,#302);
#304=CIRCLE('',#303,177.000000000000030);
#305=EDGE_CURVE('',#299,#299,#304,.T.);
#306=ORIENTED_EDGE('',*,*,#305,.F.);
#307=EDGE_LOOP('',(#306));
#308=FACE_OUTER_BOUND('',#307,.T.);
#309=CARTESIAN_POINT('',(177.000000000000030,45.000000000000007,0.0));
#310=VERTEX_POINT('',#309);
#311=CARTESIAN_POINT('',(0.0,45.000000000000007,0.0));
#312=DIRECTION('',(0.0,-1.0,0.0));
#313=DIRECTION('',(1.0,0.0,0.0));
#314=AXIS2_PLACEMENT_3D('',#311,#312,#313);
#315=CIRCLE('',#314,177.000000000000030);
#316=EDGE_CURVE('',#310,#310,#315,.T.);
#317=ORIENTED_EDGE('',*,*,#316,.T.);
#318=EDGE_LOOP('',(#317));
#319=FACE_BOUND('',#318,.T.);
#320=ADVANCED_FACE('',(#308,#319),#297,.T.);
#321=CARTESIAN_POINT('',(0.0,50.999999999999979,0.0));
#322=DIRECTION('',(0.0,-1.0,0.0));
#323=DIRECTION('',(1.0,0.0,0.0));
#324=AXIS2_PLACEMENT_3D('',#321,#322,#323);
#325=CYLINDRICAL_SURFACE('',#324,190.0);
#326=CARTESIAN_POINT('',(190.0,44.999999999999986,0.0));
#327=VERTEX_POINT('',#326);
#328=CARTESIAN_POINT('',(0.0,44.999999999999986,0.0));
#329=DIRECTION('',(0.0,-1.0,0.0));
#330=DIRECTION('',(1.0,0.0,0.0));
#331=AXIS2_PLACEMENT_3D('',#328,#329,#330);
#332=CIRCLE('',#331,190.0);
#333=EDGE_CURVE('',#327,#327,#332,.T.);
#334=ORIENTED_EDGE('',*,*,#333,.F.);
#335=EDGE_LOOP('',(#334));
#336=FACE_OUTER_BOUND('',#335,.T.);
#337=CARTESIAN_POINT('',(190.0,56.999999999999986,0.0));
#338=VERTEX_POINT('',#337);
#339=CARTESIAN_POINT('',(0.0,56.999999999999986,0.0));
#340=DIRECTION('',(0.0,-1.0,0.0));
#341=DIRECTION('',(1.0,0.0,0.0));
#342=AXIS2_PLACEMENT_3D('',#339,#340,#341);
#343=CIRCLE('',#342,190.0);
#344=EDGE_CURVE('',#338,#338,#343,.T.);
#345=ORIENTED_EDGE('',*,*,#344,.T.);
#346=EDGE_LOOP('',(#345));
#347=FACE_BOUND('',#346,.T.);
#348=ADVANCED_FACE('',(#336,#347),#325,.T.);
#349=CARTESIAN_POINT('',(183.500000000000000,45.0,0.0));
#350=DIRECTION('',(0.0,-1.0,0.0));
#351=DIRECTION('',(0.0,0.0,-1.0));
#352=AXIS2_PLACEMENT_3D('',#349,#350,#351);
#353=PLANE('',#352);
#354=ORIENTED_EDGE('',*,*,#333,.T.);
#355=EDGE_LOOP('',(#354));
#356=FACE_OUTER_BOUND('',#355,.T.);
#357=ORIENTED_EDGE('',*,*,#316,.F.);
#358=EDGE_LOOP('',(#357));
#359=FACE_BOUND('',#358,.T.);
#360=ADVANCED_FACE('',(#356,#359),#353,.T.);
#361=CARTESIAN_POINT('',(183.500000000000000,56.999999999999993,0.0));
#362=DIRECTION('',(0.0,1.0,0.0));
#363=DIRECTION('',(0.0,0.0,1.0));
#364=AXIS2_PLACEMENT_3D('',#361,#362,#363);
#365=PLANE('',#364);
#366=ORIENTED_EDGE('',*,*,#344,.F.);
#367=EDGE_LOOP('',(#366));
#368=FACE_OUTER_BOUND('',#367,.T.);
#369=ORIENTED_EDGE('',*,*,#198,.T.);
#370=ORIENTED_EDGE('',*,*,#176,.T.);
#371=EDGE_LOOP('',(#369,#370));
#372=FACE_BOUND('',#371,.T.);
#373=ORIENTED_EDGE('',*,*,#247,.T.);
#374=ORIENTED_EDGE('',*,*,#224,.T.);
#375=EDGE_LOOP('',(#373,#374));
#376=FACE_BOUND('',#375,.T.);
#377=ADVANCED_FACE('',(#368,#372,#376),#365,.T.);
#378=CARTESIAN_POINT('',(0.0,-50.999999999999979,0.0));
#379=DIRECTION('',(0.0,-1.0,0.0));
#380=DIRECTION('',(1.0,0.0,0.0));
#381=AXIS2_PLACEMENT_3D('',#378,#379,#380);
#382=CYLINDRICAL_SURFACE('',#381,190.0);
#383=CARTESIAN_POINT('',(190.0,-56.999999999999986,0.0));
#384=VERTEX_POINT('',#383);
#385=CARTESIAN_POINT('',(0.0,-56.999999999999986,0.0));
#386=DIRECTION('',(0.0,-1.0,0.0));
#387=DIRECTION('',(1.0,0.0,0.0));
#388=AXIS2_PLACEMENT_3D('',#385,#386,#387);
#389=CIRCLE('',#388,190.0);
#390=EDGE_CURVE('',#384,#384,#389,.T.);
#391=ORIENTED_EDGE('',*,*,#390,.F.);
#392=EDGE_LOOP('',(#391));
#393=FACE_OUTER_BOUND('',#392,.T.);
#394=CARTESIAN_POINT('',(190.0,-44.999999999999986,0.0));
#395=VERTEX_POINT('',#394);
#396=CARTESIAN_POINT('',(0.0,-44.999999999999986,0.0));
#397=DIRECTION('',(0.0,-1.0,0.0));
#398=DIRECTION('',(1.0,0.0,0.0));
#399=AXIS2_PLACEMENT_3D('',#396,#397,#398);
#400=CIRCLE('',#399,190.0);
#401=EDGE_CURVE('',#395,#395,#400,.T.);
#402=ORIENTED_EDGE('',*,*,#401,.T.);
#403=EDGE_LOOP('',(#402));
#404=FACE_BOUND('',#403,.T.);
#405=ADVANCED_FACE('',(#393,#404),#382,.T.);
#406=CARTESIAN_POINT('',(183.500000000000000,-56.999999999999993,0.0));
#407=DIRECTION('',(0.0,-1.0,0.0));
#408=DIRECTION('',(0.0,0.0,-1.0));
#409=AXIS2_PLACEMENT_3D('',#406,#407,#408);
#410=PLANE('',#409);
#411=ORIENTED_EDGE('',*,*,#390,.T.);
#412=EDGE_LOOP('',(#411));
#413=FACE_OUTER_BOUND('',#412,.T.);
#414=ORIENTED_EDGE('',*,*,#265,.T.);
#415=EDGE_LOOP('',(#414));
#416=FACE_BOUND('',#415,.T.);
#417=ADVANCED_FACE('',(#413,#416),#410,.T.);
#418=CARTESIAN_POINT('',(183.500000000000000,-45.0,0.0));
#419=DIRECTION('',(0.0,1.0,0.0));
#420=DIRECTION('',(0.0,0.0,1.0));
#421=AXIS2_PLACEMENT_3D('',#418,#419,#420);
#422=PLANE('',#421);
#423=ORIENTED_EDGE('',*,*,#401,.F.);
#424=EDGE_LOOP('',(#423));
#425=FACE_OUTER_BOUND('',#424,.T.);
#426=ORIENTED_EDGE('',*,*,#305,.T.);
#427=EDGE_LOOP('',(#426));
#428=FACE_BOUND('',#427,.T.);
#429=ADVANCED_FACE('',(#425,#428),#422,.T.);
#430=CLOSED_SHELL('',(#92,#117,#145,#154,#186,#203,#234,#252,#280,#292,#320,#348,#360,#377,#405,#417,#429));
#431=MANIFOLD_SOLID_BREP('',#430);
#432=COLOUR_RGB('Blau (himmelsblau)',0.439215987920761,0.627451002597809,0.988234996795654);
#433=FILL_AREA_STYLE_COLOUR('Blau (himmelsblau)',#432);
#434=FILL_AREA_STYLE('Blau (himmelsblau)',(#433));
#435=SURFACE_STYLE_FILL_AREA(#434);
#436=SURFACE_SIDE_STYLE('Blau (himmelsblau)',(#435));
#437=SURFACE_STYLE_USAGE(.BOTH.,#436);
#438=PRESENTATION_STYLE_ASSIGNMENT((#437));
#439=STYLED_ITEM('',(#438),#431);
#440=MECHANICAL_DESIGN_GEOMETRIC_PRESENTATION_REPRESENTATION('',(#439),#36);
#441=ADVANCED_BREP_SHAPE_REPRESENTATION('ABSR',(#431),#36);
#442=SHAPE_REPRESENTATION_RELATIONSHIP('SRR','None',#441,#41);
ENDSEC;
END-ISO-10303-21;
